Другие песни исполнителя

Последние добавленные:

Переделанные Песни (Пародии) - Nirvana. &Quot;The Man Who Sold The World&Quot; (с аккордами) (текст песни)

Переделанные Песни (Пародии)
	
Riff 1.
G#
e--4-----2--4h5b4-2--4-4-4-2---4h5p4-2-|
h--4-----------------------------------|
g--5-----------------------------------|
d--6-----------------------------------|
a--6-----------------------------------|
e--4-----------------------------------|
C#m
e--4-----2--4h5b4-2--4-4-4-2---4h5p4-2-|
h--5-----------------------------------|
g--6-----------------------------------|
d--6-----------------------------------|
a--4-----------------------------------|
e--------------------------------------|
G# E
e--4-----2--4h5b4-2--4-4-4-2---4h5p4-2-|--0--|
h--4-----------------------------------|--0--|
g--5-----------------------------------|--1--|
d--6-----------------------------------|--2--|
a--6-----------------------------------|--2--|
e--4-----------------------------------|--0--|
G#
Ты в доме слышишь звук -
C#m
Голос стен и стук.
G#
Хоть там я не был, вдруг,
E
Он сказал - я его друг,
H
Что я пришел в беде,
G#m
Что я сказал тебе,
C#m
Что думал - ты погиб
Riff 2
В тот давний жуткий миг.
Riff 2.
e--2-------------------------------
h--4-------------------------------
g--4-------------------------------
d--4-------------------------------
a--2-2-4-4-6-6-7-7--2-2-4-4-6-6-7-7
e----------------------------------
Кто знал?
e------------------------------------3----------
h------------------------------------5----5-----
g------------------------------------5-------5--
d------------------------------------5---5------
a--2-2-4-4-6-6-7-7--2-2-4-4-6-6-7-7--3----------
e-----------------------------------------------
Не Я! я опоздал на пир!
[ритм в конце строки - пунктир
и две восьмушки (8я-точка-16я+8+8)]
Riff 2.
Лицом к лицу,
Он человек, что продал мир.
Riff 1.
И слышишь ты мой смех -
Я верю в твой успех.
Я все гулял вдали,
Все годы я бродил,
Ведь я искал свой дом,
И думал об одном,
Что ты один погиб
В тот давний жуткий миг.
Кто знал? Не я!
Я опоздал на пир,
Лицом к лицу,
Он человек, что продал мир.
Riff 1.
О,нет! Не я!
Я опоздал на пир,
Лицом к лицу,
Он человек, что продал мир.
Riff 3.
G#
e--4-----2--4h5b4-2--4-4-4-2---4h5p4-2-|
h--4-----------------------------------|
g--5-----------------------------------|
d--6-----------------------------------|
a--6-----------------------------------|
e--4-----------------------------------|
C#m
e--4-----2--4h5b4-2--4-4-4-2---4h5p4-2-|
h--5-----------------------------------|
g--6-----------------------------------|
d--6-----------------------------------|
a--4-----------------------------------|
e--------------------------------------|
G#
e--4-----2--4h5b4-2--4-4-4-2---4h5p4-2-|
h--4-----------------------------------|
g--5-----------------------------------|
d--6-----------------------------------|
a--6-----------------------------------|
e--4-----------------------------------|
E
e--4-----2--4h5b4-2--4-4-4-2---4h5p4-2-|
h--0-----------------------------------|
g--1-----------------------------------|
d--2-----------------------------------|
a--2-----------------------------------|
e--0-----------------------------------|
Теги: ты
Оставь свое мнение