Виолетта - Dile que si (с аккордами) (текст песни с аккордами)

Виолетта
	

Intro Riff

C G
Si te preguntas porque
Am
esta vez no tienes respuesta
F
y no entiendes que pasa

Si te enamoras pero
no encuentras bien la manera
de decirle que pasa

C F
Una sensación
C
el momento
G
tan esperado

C
Dile que si
G
es lo que importa
Am F
es un temblor, miedo y euforia
C G
mira que nadie te diga que no se puede
Am F
corre anda y búscalo

Dile que si
es lo que importa
es un temblor, miedo y euforia
mira que nadie te diga que no se puede
corre anda y búscalo

Dile que si...

Riff

C
Cuando te acercas
G Am
no puedes contener tu cabeza
F
y no entiendes que pasa

C
Y las palabras
G Am
se te enriedan y no vez la manera

de decirle que pasa

C F
Una sensación
C G
el momento tan esperado

Dile que si
es lo que importa
es un temblor, miedo y euforia
mira que nadie te diga que no se puede
corre anda y búscalo

Dile que si
es lo que importa
es un temblor, miedo y euforia
mira que nadie te diga que no se puede
corre anda y búscalo

Dile que si...

G
Ya sonó el reloj
F C G
y sigues tu pensando que hacer

G
El tiempo se acabo
F Bb G
no lo dudes grítaselo

Dile que si
es lo que importa
es un temblor, miedo y euforia
mira que nadie te diga que no se puede
corre anda y búscalo

Dile que si
es lo que importa
es un temblor, miedo y euforia
mira que nadie te diga que no se puede
corre anda y búscalo

Dile que si...

Riff

Dile que si...
Fin

Riff (simplificado):
e----------------------------------------------
B---------------------------------------------
G---------------------------------------------
D------0-0-2-2-0----------------------------
A-3-3--------------3-0----------------------
E------------------------3--------------------

e----------------------------------------------
B---------------------------------------------
G---------------------------------------------
D------0-0-2-2-3-2-0----------------------
A-3-3------------------3---------------------
E---------------------------------------------

Оставь свое мнение